ISO-10303-21;
HEADER;
FILE_DESCRIPTION(('CATIA V5 STEP Exchange'),'2;1');

FILE_NAME('\\\\stisrv.epfl.ch\\sti-sgm\\sgm-ens\\soubiell\\Enseignement\\ME-101-106 - Construction M\X2\00E9\X0\canique I\\1. Supports de cours\\SW1\\Fichiers sources et illustrations\\Dessin Technique - Introduction - Mod\X2\00E8\X0\les 3D CATIA (exercice 2)\\EXERCICE 2 - PIECE B.stp','2023-10-16T12:12:51+00:00',('none'),('none'),'CATIA Unofficial Packaging Version SP3','CATIA V5 STEP AP203','none');

FILE_SCHEMA(('CONFIG_CONTROL_DESIGN'));

ENDSEC;
DATA;
#5=PRODUCT('EXERCICE 2 - PIECE B','','',(#2)) ;
#1=APPLICATION_CONTEXT('configuration controlled 3D design of mechanical parts and assemblies') ;
#14=PRODUCT_DEFINITION('',' ',#6,#3) ;
#16=SECURITY_CLASSIFICATION(' ',' ',#15) ;
#15=SECURITY_CLASSIFICATION_LEVEL('unclassified') ;
#46=CARTESIAN_POINT(' ',(0.,0.,0.)) ;
#51=CARTESIAN_POINT('Axis2P3D Location',(0.,0.,0.)) ;
#56=CARTESIAN_POINT('Line Origine',(-25.,-15.,0.)) ;
#60=CARTESIAN_POINT('Vertex',(-25.,-5.,0.)) ;
#62=CARTESIAN_POINT('Vertex',(-25.,-25.,0.)) ;
#65=CARTESIAN_POINT('Line Origine',(-12.5,-5.,0.)) ;
#69=CARTESIAN_POINT('Vertex',(0.,-5.,0.)) ;
#72=CARTESIAN_POINT('Line Origine',(0.,-15.,0.)) ;
#76=CARTESIAN_POINT('Vertex',(0.,-25.,0.)) ;
#79=CARTESIAN_POINT('Line Origine',(-12.5,-25.,0.)) ;
#91=CARTESIAN_POINT('Axis2P3D Location',(0.,-25.,0.)) ;
#96=CARTESIAN_POINT('Line Origine',(0.,-25.,5.)) ;
#100=CARTESIAN_POINT('Vertex',(0.,-25.,10.)) ;
#103=CARTESIAN_POINT('Line Origine',(0.,-5.,5.)) ;
#107=CARTESIAN_POINT('Vertex',(0.,-5.,10.)) ;
#110=CARTESIAN_POINT('Line Origine',(0.,-15.,10.)) ;
#122=CARTESIAN_POINT('Axis2P3D Location',(0.,0.,10.)) ;
#127=CARTESIAN_POINT('Line Origine',(-2.5,-25.,10.)) ;
#131=CARTESIAN_POINT('Vertex',(-5.,-25.,10.)) ;
#134=CARTESIAN_POINT('Line Origine',(-2.5,-5.,10.)) ;
#138=CARTESIAN_POINT('Vertex',(-5.,-5.,10.)) ;
#141=CARTESIAN_POINT('Line Origine',(-5.,-15.,10.)) ;
#153=CARTESIAN_POINT('Axis2P3D Location',(0.,-5.,0.)) ;
#158=CARTESIAN_POINT('Line Origine',(-25.,-5.,5.)) ;
#162=CARTESIAN_POINT('Vertex',(-25.,-5.,10.)) ;
#165=CARTESIAN_POINT('Line Origine',(-15.,-5.,10.)) ;
#178=CARTESIAN_POINT('Axis2P3D Location',(0.,0.,0.)) ;
#183=CARTESIAN_POINT('Line Origine',(-15.,0.,10.)) ;
#187=CARTESIAN_POINT('Vertex',(-5.,0.,10.)) ;
#189=CARTESIAN_POINT('Vertex',(-25.,0.,10.)) ;
#192=CARTESIAN_POINT('Line Origine',(-25.,0.,20.)) ;
#196=CARTESIAN_POINT('Vertex',(-25.,0.,30.)) ;
#199=CARTESIAN_POINT('Line Origine',(-20.,0.,30.)) ;
#203=CARTESIAN_POINT('Vertex',(-15.,0.,30.)) ;
#206=CARTESIAN_POINT('Line Origine',(-10.,0.,25.)) ;
#210=CARTESIAN_POINT('Vertex',(-5.,0.,20.)) ;
#213=CARTESIAN_POINT('Line Origine',(-5.,0.,15.)) ;
#226=CARTESIAN_POINT('Line Origine',(-25.,-2.5,10.)) ;
#231=CARTESIAN_POINT('Line Origine',(-5.,-2.5,10.)) ;
#243=CARTESIAN_POINT('Axis2P3D Location',(-25.,0.,30.)) ;
#248=CARTESIAN_POINT('Line Origine',(-20.,-25.,30.)) ;
#252=CARTESIAN_POINT('Vertex',(-25.,-25.,30.)) ;
#254=CARTESIAN_POINT('Vertex',(-15.,-25.,30.)) ;
#257=CARTESIAN_POINT('Line Origine',(-15.,-12.5,30.)) ;
#262=CARTESIAN_POINT('Line Origine',(-25.,-12.5,30.)) ;
#274=CARTESIAN_POINT('Axis2P3D Location',(-15.,0.,30.)) ;
#279=CARTESIAN_POINT('Line Origine',(-10.,-25.,25.)) ;
#283=CARTESIAN_POINT('Vertex',(-5.,-25.,20.)) ;
#286=CARTESIAN_POINT('Line Origine',(-5.,-12.5,20.)) ;
#298=CARTESIAN_POINT('Axis2P3D Location',(-5.,0.,20.)) ;
#303=CARTESIAN_POINT('Line Origine',(-5.,-25.,15.)) ;
#316=CARTESIAN_POINT('Axis2P3D Location',(-25.,-25.,0.)) ;
#321=CARTESIAN_POINT('Line Origine',(-25.,-25.,15.)) ;
#336=CARTESIAN_POINT('Axis2P3D Location',(-25.,-5.,0.)) ;
#52=DIRECTION('Axis2P3D Direction',(0.,0.,1.)) ;
#53=DIRECTION('Axis2P3D XDirection',(1.,0.,0.)) ;
#57=DIRECTION('Vector Direction',(0.,-1.,0.)) ;
#66=DIRECTION('Vector Direction',(-1.,0.,0.)) ;
#73=DIRECTION('Vector Direction',(0.,1.,0.)) ;
#80=DIRECTION('Vector Direction',(1.,0.,0.)) ;
#92=DIRECTION('Axis2P3D Direction',(1.,0.,0.)) ;
#93=DIRECTION('Axis2P3D XDirection',(0.,1.,0.)) ;
#97=DIRECTION('Vector Direction',(0.,0.,1.)) ;
#104=DIRECTION('Vector Direction',(0.,0.,1.)) ;
#111=DIRECTION('Vector Direction',(0.,1.,0.)) ;
#123=DIRECTION('Axis2P3D Direction',(0.,0.,1.)) ;
#124=DIRECTION('Axis2P3D XDirection',(1.,0.,0.)) ;
#128=DIRECTION('Vector Direction',(1.,0.,0.)) ;
#135=DIRECTION('Vector Direction',(-1.,0.,0.)) ;
#142=DIRECTION('Vector Direction',(0.,-1.,0.)) ;
#154=DIRECTION('Axis2P3D Direction',(0.,1.,-0.)) ;
#155=DIRECTION('Axis2P3D XDirection',(-1.,0.,0.)) ;
#159=DIRECTION('Vector Direction',(0.,0.,1.)) ;
#166=DIRECTION('Vector Direction',(-1.,0.,0.)) ;
#179=DIRECTION('Axis2P3D Direction',(0.,1.,-0.)) ;
#180=DIRECTION('Axis2P3D XDirection',(-1.,0.,0.)) ;
#184=DIRECTION('Vector Direction',(-1.,0.,0.)) ;
#193=DIRECTION('Vector Direction',(0.,0.,1.)) ;
#200=DIRECTION('Vector Direction',(1.,0.,0.)) ;
#207=DIRECTION('Vector Direction',(0.707106781187,0.,-0.707106781187)) ;
#214=DIRECTION('Vector Direction',(0.,0.,-1.)) ;
#227=DIRECTION('Vector Direction',(0.,-1.,0.)) ;
#232=DIRECTION('Vector Direction',(0.,-1.,0.)) ;
#244=DIRECTION('Axis2P3D Direction',(0.,0.,-1.)) ;
#245=DIRECTION('Axis2P3D XDirection',(1.,0.,0.)) ;
#249=DIRECTION('Vector Direction',(1.,0.,0.)) ;
#258=DIRECTION('Vector Direction',(0.,-1.,0.)) ;
#263=DIRECTION('Vector Direction',(0.,-1.,0.)) ;
#275=DIRECTION('Axis2P3D Direction',(-0.707106781187,-0.,-0.707106781187)) ;
#276=DIRECTION('Axis2P3D XDirection',(0.707106781187,0.,-0.707106781187)) ;
#280=DIRECTION('Vector Direction',(0.707106781187,0.,-0.707106781187)) ;
#287=DIRECTION('Vector Direction',(0.,-1.,0.)) ;
#299=DIRECTION('Axis2P3D Direction',(-1.,0.,8.881784197E-017)) ;
#300=DIRECTION('Axis2P3D XDirection',(-8.881784197E-017,0.,-1.)) ;
#304=DIRECTION('Vector Direction',(-8.881784197E-017,0.,-1.)) ;
#317=DIRECTION('Axis2P3D Direction',(0.,-1.,0.)) ;
#318=DIRECTION('Axis2P3D XDirection',(1.,0.,0.)) ;
#322=DIRECTION('Vector Direction',(0.,0.,-1.)) ;
#337=DIRECTION('Axis2P3D Direction',(-1.,0.,0.)) ;
#338=DIRECTION('Axis2P3D XDirection',(0.,-1.,0.)) ;
#47=AXIS2_PLACEMENT_3D(' ',#46,$,$) ;
#54=AXIS2_PLACEMENT_3D('Plane Axis2P3D',#51,#52,#53) ;
#94=AXIS2_PLACEMENT_3D('Plane Axis2P3D',#91,#92,#93) ;
#125=AXIS2_PLACEMENT_3D('Plane Axis2P3D',#122,#123,#124) ;
#156=AXIS2_PLACEMENT_3D('Plane Axis2P3D',#153,#154,#155) ;
#181=AXIS2_PLACEMENT_3D('Plane Axis2P3D',#178,#179,#180) ;
#246=AXIS2_PLACEMENT_3D('Plane Axis2P3D',#243,#244,#245) ;
#277=AXIS2_PLACEMENT_3D('Plane Axis2P3D',#274,#275,#276) ;
#301=AXIS2_PLACEMENT_3D('Plane Axis2P3D',#298,#299,#300) ;
#319=AXIS2_PLACEMENT_3D('Plane Axis2P3D',#316,#317,#318) ;
#339=AXIS2_PLACEMENT_3D('Plane Axis2P3D',#336,#337,#338) ;
#40=PRODUCT_DEFINITION_SHAPE(' ',' ',#14) ;
#31=APPROVAL_PERSON_ORGANIZATION(#25,#21,#19) ;
#25=PERSON_AND_ORGANIZATION(#22,#23) ;
#22=PERSON(' ',' ',' ',$,$,$) ;
#23=ORGANIZATION(' ',' ',' ') ;
#21=APPROVAL(#20,' ') ;
#20=APPROVAL_STATUS('not_yet_approved') ;
#19=APPROVAL_ROLE('APPROVER') ;
#13=DATE_AND_TIME(#11,#12) ;
#12=LOCAL_TIME(14,12,51.,#10) ;
#10=COORDINATED_UNIVERSAL_TIME_OFFSET(0,0,.AHEAD.) ;
#85=ORIENTED_EDGE('',*,*,#64,.F.) ;
#86=ORIENTED_EDGE('',*,*,#71,.F.) ;
#87=ORIENTED_EDGE('',*,*,#78,.F.) ;
#88=ORIENTED_EDGE('',*,*,#83,.F.) ;
#116=ORIENTED_EDGE('',*,*,#102,.F.) ;
#117=ORIENTED_EDGE('',*,*,#78,.T.) ;
#118=ORIENTED_EDGE('',*,*,#109,.T.) ;
#119=ORIENTED_EDGE('',*,*,#114,.F.) ;
#147=ORIENTED_EDGE('',*,*,#133,.T.) ;
#148=ORIENTED_EDGE('',*,*,#114,.T.) ;
#149=ORIENTED_EDGE('',*,*,#140,.T.) ;
#150=ORIENTED_EDGE('',*,*,#145,.T.) ;
#171=ORIENTED_EDGE('',*,*,#109,.F.) ;
#172=ORIENTED_EDGE('',*,*,#71,.T.) ;
#173=ORIENTED_EDGE('',*,*,#164,.T.) ;
#174=ORIENTED_EDGE('',*,*,#169,.F.) ;
#175=ORIENTED_EDGE('',*,*,#140,.F.) ;
#219=ORIENTED_EDGE('',*,*,#191,.T.) ;
#220=ORIENTED_EDGE('',*,*,#198,.T.) ;
#221=ORIENTED_EDGE('',*,*,#205,.T.) ;
#222=ORIENTED_EDGE('',*,*,#212,.T.) ;
#223=ORIENTED_EDGE('',*,*,#217,.T.) ;
#237=ORIENTED_EDGE('',*,*,#169,.T.) ;
#238=ORIENTED_EDGE('',*,*,#230,.F.) ;
#239=ORIENTED_EDGE('',*,*,#191,.F.) ;
#240=ORIENTED_EDGE('',*,*,#235,.T.) ;
#268=ORIENTED_EDGE('',*,*,#256,.T.) ;
#269=ORIENTED_EDGE('',*,*,#261,.F.) ;
#270=ORIENTED_EDGE('',*,*,#205,.F.) ;
#271=ORIENTED_EDGE('',*,*,#266,.T.) ;
#292=ORIENTED_EDGE('',*,*,#285,.T.) ;
#293=ORIENTED_EDGE('',*,*,#290,.F.) ;
#294=ORIENTED_EDGE('',*,*,#212,.F.) ;
#295=ORIENTED_EDGE('',*,*,#261,.T.) ;
#309=ORIENTED_EDGE('',*,*,#307,.T.) ;
#310=ORIENTED_EDGE('',*,*,#145,.F.) ;
#311=ORIENTED_EDGE('',*,*,#235,.F.) ;
#312=ORIENTED_EDGE('',*,*,#217,.F.) ;
#313=ORIENTED_EDGE('',*,*,#290,.T.) ;
#327=ORIENTED_EDGE('',*,*,#325,.T.) ;
#328=ORIENTED_EDGE('',*,*,#83,.T.) ;
#329=ORIENTED_EDGE('',*,*,#102,.T.) ;
#330=ORIENTED_EDGE('',*,*,#133,.F.) ;
#331=ORIENTED_EDGE('',*,*,#307,.F.) ;
#332=ORIENTED_EDGE('',*,*,#285,.F.) ;
#333=ORIENTED_EDGE('',*,*,#256,.F.) ;
#342=ORIENTED_EDGE('',*,*,#164,.F.) ;
#343=ORIENTED_EDGE('',*,*,#64,.T.) ;
#344=ORIENTED_EDGE('',*,*,#325,.F.) ;
#345=ORIENTED_EDGE('',*,*,#266,.F.) ;
#346=ORIENTED_EDGE('',*,*,#198,.F.) ;
#347=ORIENTED_EDGE('',*,*,#230,.T.) ;
#50=CLOSED_SHELL('Closed Shell',(#90,#121,#152,#177,#225,#242,#273,#297,#315,#335,#349)) ;
#58=VECTOR('Line Direction',#57,1.) ;
#67=VECTOR('Line Direction',#66,1.) ;
#74=VECTOR('Line Direction',#73,1.) ;
#81=VECTOR('Line Direction',#80,1.) ;
#98=VECTOR('Line Direction',#97,1.) ;
#105=VECTOR('Line Direction',#104,1.) ;
#112=VECTOR('Line Direction',#111,1.) ;
#129=VECTOR('Line Direction',#128,1.) ;
#136=VECTOR('Line Direction',#135,1.) ;
#143=VECTOR('Line Direction',#142,1.) ;
#160=VECTOR('Line Direction',#159,1.) ;
#167=VECTOR('Line Direction',#166,1.) ;
#185=VECTOR('Line Direction',#184,1.) ;
#194=VECTOR('Line Direction',#193,1.) ;
#201=VECTOR('Line Direction',#200,1.) ;
#208=VECTOR('Line Direction',#207,1.) ;
#215=VECTOR('Line Direction',#214,1.) ;
#228=VECTOR('Line Direction',#227,1.) ;
#233=VECTOR('Line Direction',#232,1.) ;
#250=VECTOR('Line Direction',#249,1.) ;
#259=VECTOR('Line Direction',#258,1.) ;
#264=VECTOR('Line Direction',#263,1.) ;
#281=VECTOR('Line Direction',#280,1.) ;
#288=VECTOR('Line Direction',#287,1.) ;
#305=VECTOR('Line Direction',#304,1.) ;
#323=VECTOR('Line Direction',#322,1.) ;
#351=ADVANCED_BREP_SHAPE_REPRESENTATION('NONE',(#350),#45) ;
#48=SHAPE_REPRESENTATION(' ',(#47),#45) ;
#90=ADVANCED_FACE('Corps principal',(#89),#55,.F.) ;
#121=ADVANCED_FACE('Corps principal',(#120),#95,.T.) ;
#152=ADVANCED_FACE('Corps principal',(#151),#126,.T.) ;
#177=ADVANCED_FACE('Corps principal',(#176),#157,.T.) ;
#225=ADVANCED_FACE('Corps principal',(#224),#182,.T.) ;
#242=ADVANCED_FACE('Corps principal',(#241),#126,.F.) ;
#273=ADVANCED_FACE('Corps principal',(#272),#247,.F.) ;
#297=ADVANCED_FACE('Corps principal',(#296),#278,.F.) ;
#315=ADVANCED_FACE('Corps principal',(#314),#302,.F.) ;
#335=ADVANCED_FACE('Corps principal',(#334),#320,.T.) ;
#349=ADVANCED_FACE('Corps principal',(#348),#340,.T.) ;
#4=APPLICATION_PROTOCOL_DEFINITION('international standard','config_control_design',1994,#1) ;
#32=APPROVAL_DATE_TIME(#13,#21) ;
#350=MANIFOLD_SOLID_BREP('Corps principal',#50) ;
#11=CALENDAR_DATE(2023,16,10) ;
#30=CC_DESIGN_APPROVAL(#21,(#16,#6,#14)) ;
#18=CC_DESIGN_DATE_AND_TIME_ASSIGNMENT(#13,#17,(#16)) ;
#29=CC_DESIGN_DATE_AND_TIME_ASSIGNMENT(#13,#28,(#14)) ;
#17=DATE_TIME_ROLE('classification_date') ;
#28=DATE_TIME_ROLE('creation_date') ;
#27=CC_DESIGN_PERSON_AND_ORGANIZATION_ASSIGNMENT(#25,#26,(#16)) ;
#33=CC_DESIGN_PERSON_AND_ORGANIZATION_ASSIGNMENT(#25,#34,(#6)) ;
#35=CC_DESIGN_PERSON_AND_ORGANIZATION_ASSIGNMENT(#25,#36,(#6,#14)) ;
#37=CC_DESIGN_PERSON_AND_ORGANIZATION_ASSIGNMENT(#25,#38,(#5)) ;
#26=PERSON_AND_ORGANIZATION_ROLE('classification_officer') ;
#34=PERSON_AND_ORGANIZATION_ROLE('design_supplier') ;
#36=PERSON_AND_ORGANIZATION_ROLE('creator') ;
#38=PERSON_AND_ORGANIZATION_ROLE('design_owner') ;
#39=CC_DESIGN_SECURITY_CLASSIFICATION(#16,(#6)) ;
#352=SHAPE_REPRESENTATION_RELATIONSHIP(' ',' ',#48,#351) ;
#3=DESIGN_CONTEXT(' ',#1,'design') ;
#64=EDGE_CURVE('',#61,#63,#59,.T.) ;
#71=EDGE_CURVE('',#70,#61,#68,.T.) ;
#78=EDGE_CURVE('',#77,#70,#75,.T.) ;
#83=EDGE_CURVE('',#63,#77,#82,.T.) ;
#102=EDGE_CURVE('',#77,#101,#99,.T.) ;
#109=EDGE_CURVE('',#70,#108,#106,.T.) ;
#114=EDGE_CURVE('',#101,#108,#113,.T.) ;
#133=EDGE_CURVE('',#132,#101,#130,.T.) ;
#140=EDGE_CURVE('',#108,#139,#137,.T.) ;
#145=EDGE_CURVE('',#139,#132,#144,.T.) ;
#164=EDGE_CURVE('',#61,#163,#161,.T.) ;
#169=EDGE_CURVE('',#139,#163,#168,.T.) ;
#191=EDGE_CURVE('',#188,#190,#186,.T.) ;
#198=EDGE_CURVE('',#190,#197,#195,.T.) ;
#205=EDGE_CURVE('',#197,#204,#202,.T.) ;
#212=EDGE_CURVE('',#204,#211,#209,.T.) ;
#217=EDGE_CURVE('',#211,#188,#216,.T.) ;
#230=EDGE_CURVE('',#190,#163,#229,.T.) ;
#235=EDGE_CURVE('',#188,#139,#234,.T.) ;
#256=EDGE_CURVE('',#253,#255,#251,.T.) ;
#261=EDGE_CURVE('',#204,#255,#260,.T.) ;
#266=EDGE_CURVE('',#197,#253,#265,.T.) ;
#285=EDGE_CURVE('',#255,#284,#282,.T.) ;
#290=EDGE_CURVE('',#211,#284,#289,.T.) ;
#307=EDGE_CURVE('',#284,#132,#306,.T.) ;
#325=EDGE_CURVE('',#253,#63,#324,.T.) ;
#84=EDGE_LOOP('',(#85,#86,#87,#88)) ;
#115=EDGE_LOOP('',(#116,#117,#118,#119)) ;
#146=EDGE_LOOP('',(#147,#148,#149,#150)) ;
#170=EDGE_LOOP('',(#171,#172,#173,#174,#175)) ;
#218=EDGE_LOOP('',(#219,#220,#221,#222,#223)) ;
#236=EDGE_LOOP('',(#237,#238,#239,#240)) ;
#267=EDGE_LOOP('',(#268,#269,#270,#271)) ;
#291=EDGE_LOOP('',(#292,#293,#294,#295)) ;
#308=EDGE_LOOP('',(#309,#310,#311,#312,#313)) ;
#326=EDGE_LOOP('',(#327,#328,#329,#330,#331,#332,#333)) ;
#341=EDGE_LOOP('',(#342,#343,#344,#345,#346,#347)) ;
#89=FACE_OUTER_BOUND('',#84,.T.) ;
#120=FACE_OUTER_BOUND('',#115,.T.) ;
#151=FACE_OUTER_BOUND('',#146,.T.) ;
#176=FACE_OUTER_BOUND('',#170,.T.) ;
#224=FACE_OUTER_BOUND('',#218,.T.) ;
#241=FACE_OUTER_BOUND('',#236,.T.) ;
#272=FACE_OUTER_BOUND('',#267,.T.) ;
#296=FACE_OUTER_BOUND('',#291,.T.) ;
#314=FACE_OUTER_BOUND('',#308,.T.) ;
#334=FACE_OUTER_BOUND('',#326,.T.) ;
#348=FACE_OUTER_BOUND('',#341,.T.) ;
#44=UNCERTAINTY_MEASURE_WITH_UNIT(LENGTH_MEASURE(0.005),#41,'distance_accuracy_value','CONFUSED CURVE UNCERTAINTY') ;
#59=LINE('Line',#56,#58) ;
#68=LINE('Line',#65,#67) ;
#75=LINE('Line',#72,#74) ;
#82=LINE('Line',#79,#81) ;
#99=LINE('Line',#96,#98) ;
#106=LINE('Line',#103,#105) ;
#113=LINE('Line',#110,#112) ;
#130=LINE('Line',#127,#129) ;
#137=LINE('Line',#134,#136) ;
#144=LINE('Line',#141,#143) ;
#161=LINE('Line',#158,#160) ;
#168=LINE('Line',#165,#167) ;
#186=LINE('Line',#183,#185) ;
#195=LINE('Line',#192,#194) ;
#202=LINE('Line',#199,#201) ;
#209=LINE('Line',#206,#208) ;
#216=LINE('Line',#213,#215) ;
#229=LINE('Line',#226,#228) ;
#234=LINE('Line',#231,#233) ;
#251=LINE('Line',#248,#250) ;
#260=LINE('Line',#257,#259) ;
#265=LINE('Line',#262,#264) ;
#282=LINE('Line',#279,#281) ;
#289=LINE('Line',#286,#288) ;
#306=LINE('Line',#303,#305) ;
#324=LINE('Line',#321,#323) ;
#2=MECHANICAL_CONTEXT(' ',#1,'mechanical') ;
#24=PERSONAL_ADDRESS(' ',' ',' ',' ',' ',' ',' ',' ',' ',' ',' ',' ',(#22),' ') ;
#55=PLANE('',#54) ;
#95=PLANE('',#94) ;
#126=PLANE('',#125) ;
#157=PLANE('',#156) ;
#182=PLANE('',#181) ;
#247=PLANE('',#246) ;
#278=PLANE('',#277) ;
#302=PLANE('',#301) ;
#320=PLANE('',#319) ;
#340=PLANE('',#339) ;
#7=PRODUCT_CATEGORY('part',$) ;
#9=PRODUCT_CATEGORY_RELATIONSHIP(' ',' ',#7,#8) ;
#6=PRODUCT_DEFINITION_FORMATION_WITH_SPECIFIED_SOURCE('',' ',#5,.NOT_KNOWN.) ;
#8=PRODUCT_RELATED_PRODUCT_CATEGORY('detail',$,(#5)) ;
#49=SHAPE_DEFINITION_REPRESENTATION(#40,#48) ;
#61=VERTEX_POINT('',#60) ;
#63=VERTEX_POINT('',#62) ;
#70=VERTEX_POINT('',#69) ;
#77=VERTEX_POINT('',#76) ;
#101=VERTEX_POINT('',#100) ;
#108=VERTEX_POINT('',#107) ;
#132=VERTEX_POINT('',#131) ;
#139=VERTEX_POINT('',#138) ;
#163=VERTEX_POINT('',#162) ;
#188=VERTEX_POINT('',#187) ;
#190=VERTEX_POINT('',#189) ;
#197=VERTEX_POINT('',#196) ;
#204=VERTEX_POINT('',#203) ;
#211=VERTEX_POINT('',#210) ;
#253=VERTEX_POINT('',#252) ;
#255=VERTEX_POINT('',#254) ;
#284=VERTEX_POINT('',#283) ;
#41=(LENGTH_UNIT()NAMED_UNIT(*)SI_UNIT(.MILLI.,.METRE.)) ;
#42=(NAMED_UNIT(*)PLANE_ANGLE_UNIT()SI_UNIT($,.RADIAN.)) ;
#43=(NAMED_UNIT(*)SI_UNIT($,.STERADIAN.)SOLID_ANGLE_UNIT()) ;
#45=(GEOMETRIC_REPRESENTATION_CONTEXT(3)GLOBAL_UNCERTAINTY_ASSIGNED_CONTEXT((#44))GLOBAL_UNIT_ASSIGNED_CONTEXT((#41,#42,#43))REPRESENTATION_CONTEXT(' ',' ')) ;
ENDSEC;
END-ISO-10303-21;
